[ Gitarrenkurs Home ] [ Einführung ] [ Teil 1: Die Grundlagen ] [ Teil 2: Zupftechniken ] [ Teil 3: Das mehrstimmige Melodiespiel ] Anhang: Gitarrengriffe - Zupfmuster - Lage der Noten, Transponieren - Verzeichnis der Lieder und Musikbeispiele - Eigene Kompositionen und Arrangements [ Visitabilis ]

[Gitarrenkurs]GITARRENKURS

Das 3/4-Takt-Zupfmuster als Beispiel bei verschiedenen Gitarrengriffen

Die folgende Übersicht zeigt, welche Saiten exemplarisch bei einem Zupfmuster jeweils gezupft werden. Die Diskantsaiten (E - H - G) bleiben in der Reihenfolge immer gleich, aber der Daumen zupft immer nur eine der drei Basssaiten. Welche, das hängt von dem Aufbau des jeweils zu spielenden Akkords zusammen:


      C  - Dur-Akkord                   G7 (Dominant-Sept-Akk.)

 E-----------0--------                 E-----------1--------
 H--------1----1-----                 H--------0----0-----
 G-----0--------0--                 G-----0--------0--
 D---------------                 D---------------
 A--3------------                 A---------------
 E--------------                 E--3------------
    +--+  +--+  +--+                       +--+  +--+  +--+   
    D  Z  M  R  M  Z                       D  Z  M  R  M  Z   

      a  - moll                         G  - Dur

 E-----------0--------                 E-----------3--------
 H--------1----1-----                 H--------0----0-----
 G-----2--------2--                 G-----0--------0--
 D---------------                 D---------------
 A--0------------                 A---------------
 E--------------                 E--3------------
    +--+  +--+  +--+                       +--+  +--+  +--+   
    D  Z  M  R  M  Z                       D  Z  M  R  M  Z   

      e  - moll                            E7

 E-----------0--------                 E-----------0--------
 H--------0----0-----                 H--------2----2-----
 G-----0--------0--                 G-----1--------1--
 D---------------                 D---------------
 A---------------                 A---------------
 E--0------------                 E--0------------
    +--+  +--+  +--+                       +--+  +--+  +--+   
    D  Z  M  R  M  Z                       D  Z  M  R  M  Z   

      D  - Dur                          D7

 E-----------2--------                 E-----------2--------
 H--------3----3-----                 H--------1----1-----
 G-----2--------2--                 G-----2--------2--
 D--0------------                 D--0------------
 A--------------                 A--------------
 E--------------                 E--------------
    +--+  +--+  +--+                       +--+  +--+  +--+   
    D  Z  M  R  M  Z                       D  Z  M  R  M  Z   

      A7                                  h  - moll *

 E-----------0--------                 E-----------2--------
 H--------2----2-----                 H--------3----3-----
 G-----0--------0--                 G-----4--------4--
 D---------------                 D--0------------
 A--0------------                 A--------------
 E--------------                 E--------------
    +--+  +--+  +--+                       +--+  +--+  +--+   
    D  Z  M  R  M  Z                       D  Z  M  R  M  Z   

      A  - Dur                          fis - moll

 E-----------0--------                 E-----------2--------
 H--------2----2-----                 H--------2----2-----
 G-----2--------2--                 G-----2--------2--
 D---------------                 D---------------
 A--0------------                 A---------------
 E--------------                 E--2------------
    +--+  +--+  +--+                       +--+  +--+  +--+   
    D  Z  M  R  M  Z                       D  Z  M  R  M  Z   

      E  - Dur                             H7

 E-----------0--------                 E-----------2--------
 H--------0----0-----                 H--------0----0-----
 G-----1--------1--                 G-----2--------2--
 D---------------                 D---------------
 A---------------                 A--2------------
 E--0------------                 E--------------
    +--+  +--+  +--+                       +--+  +--+  +--+   
    D  Z  M  R  M  Z                       D  Z  M  R  M  Z   

      F  - Dur *                        d  - moll

 E-----------1--------                 E-----------1--------
 H--------1----1-----                 H--------3----3-----
 G-----2--------2--                 G-----2--------2--
 D--3------------                 D--0------------
 A--------------                 A--------------
 E--------------                 E--------------
    +--+  +--+  +--+                       +--+  +--+  +--+   
    D  Z  M  R  M  Z                       D  Z  M  R  M  Z   

      Bb - Dur                             C7

 E-----------1--------                 E-----------0--------
 H--------2----2-----                 H--------1----1-----
 G-----2--------2--                 G-----3--------3--
 D--0------------                 D---------------
 A--------------                 A--3------------
 E--------------                 E--------------
    +--+  +--+  +--+                       +--+  +--+  +--+   
    D  Z  M  R  M  Z                       D  Z  M  R  M  Z   

      e7                                    e7 (zweite Form)

 E-----------0--------                 E-----------0--------
 H--------1----1-----                 H--------0----0-----
 G-----0--------0--                 G-----0--------0--
 D---------------                 D---------------
 A---------------                 A--2------------
 E--0------------                 E--------------
    +--+  +--+  +--+                       +--+  +--+  +--+   
    D  Z  M  R  M  Z                       D  Z  M  R  M  Z   

* Für F-Dur und h-moll können auch die folgenden Barrée-Griffe verwendet werden:

F - Dur h - moll E-----------1-------- E-----------2-------- H--------1----1----- H--------3----3----- G-----2--------2-- G-----4--------4-- D--------------- D--------------- A--------------- A--------------- E--1------------ E--2------------ +--+ +--+ +--+ +--+ +--+ +--+ D Z M R M Z D Z M R M Z +-----------------------+ Kürzel: Bd. = Bund (Z) = Zeigefinger (M) = Mittelfinger (R) = Ringfinger (K) = Kleiner Finger Ein X hinter den Sai- tennamen bedeutet: Diese Saite wird nicht angeschlagen. +-----------------------+


[St.Jakobi] [Anfang] [Gitarrenkurs] [Ende] [Glaube]
Impressum, http://bs.cyty.com/visitabilis/gitarre/gitarzupf.htm, Stand: 21. Dezember 2000, ee