[ Gitarrenkurs Home ] [ Einführung ] Teil 1: Die Grundlagen: C, G7, Begleitung - Rock my Soul - ...the whole World - F-Dur - Kumbajah - Oh when the Saints... - Kuckuck und Esel - Töne, Klang, Musik - Le Réve - Te Deum - Gehörbildung - E-Dur, a-moll, G-Dur - Drunken Sailor - G-Dur, Griffwechsel - D7, Tom Dooley - In einen Harung... - e-, d-moll, Michael, row - A7, ...Kolumbus - Mein Michel - Le Réve, Teil 2 - Das Bürgerlied [ Teil 2: Zupftechniken ] [ Teil 3: Das mehrstimmige Melodiespiel ] [ Anhang ] [ Visitabilis ]

[Gitarrenkurs]GITARRENKURS

LE RÉVE, Teil 2

Anhören Anhören: Midi-Wiedergabe.

Zu dem ersten Melodiestück gibt es auch einen zweiten Teil: Wer den ersten Teil (siehe: Die ersten Melodiestücke) bereits flüssig spielen kann, findet hier neuen Stoff:


E-4-4--4-4--2-0-----------------9-9--9-9--11-9- 
H----------------5-4--4-4--3-4-----------------
G---------------------------------------------- 
D---------------------------------------------- 
A---------------------------------------------- 
E---------------------------------------------- 

E-9-7--7-7--9-11--12-12--12-12--11-10--9-9--9-9-
H----------------------------------------------- 
G----------------------------------------------- 
D----------------------------------------------- 
A----------------------------------------------- 
E----------------------------------------------- 

E-7-5--4-4--4-4--5-2--0-0--0-0-
H------------------------------ 
G------------------------------ 
D------------------------------ 
A------------------------------
E------------------------------


[St.Jakobi] [Anfang] [Zurück] [Gitarrenkurs] [Weiter] [Ende] [Glaube]
Impressum, http://bs.cyty.com/visitabilis/gitarre/gitar24.htm, Stand: 18. Dezember 2000, ee