[ Gitarrenkurs Home ] [ Einführung ] [ Teil 1: Die Grundlagen ] [ Teil 2: Zupftechniken ] Teil 3: Das mehrstimmige Melodiespiel: Le Réve - Klassische Gitarre - Jesus bleibet... - Praeludium zu Te Deum - Götterfunken - Menuett - Bourée - Jesus meine Freude - Lied des Papageno - "himmlische Freiheit" - Ende und Verweise [ Anhang ] [ Visitabilis ]

[Gitarrenkurs]GITARRENKURS

[ 1981] FREUDE, SCHÖNER GÖTTERFUNKEN      Ludwig van Beethoven (1770-1827)

Anhören: Anhören Midi-Wiedergabe - Anhören Ogg Vorbis: Streaming / Download - Notenansicht - Tabulatur (Druckversion).

Der Schlußchor "Freude schöner Götterfunken" stammt aus der 9. Synphonie. Der Text ist von Friedrich Schiller (Die Ode an die Freude). Beethoven komponierte diese Synphonie, als er bereits völlig taub geworden war. Hier ist eine Fassung der Hauptmelodie für Gitarre:

4/4-Takt

Zupf-   M Z M Z M Z M Z
finger: D   D   D   D  ...

Griffe: C           G         G7  G6  Gd    C       Gd  C             
E-------0---0---1---3----3---1---0--------------------0--- 
H-----------------------------3----1---1---3------
G--------0--0--0--0---0--0--0--0---0--0--0--0- 
D--------------------------------- 
A-------3--3--3-------2----2---3--3--2--3-- 
E-------------3---3----3------------- 
        +-+ +-+ +-+ +-+   +-+ +-+ +-+ +-+   +-+ +-+ +-+ +-+ 
                Z   K     K   Z       K     Z   Z   K               
        R   R   R   R     R   M   R   M     R   R   M   R               

   C       Gd  C           G         G7  G6  Gd    a   Gd C  
E--0-----0----0---0---1---3----3---1---0---------------0- 
H-----1--3------------------------3----1-1-3--- 
G---0---0---0--0--0--0---0--0--0--0------- 
D------------------------------- 
A--3------3--3--3-------2----2---0-0-2--3- 
E------3--------3---3----3---------- 
   +-+ +-+     +-+ +-+ +-+ +-+   +-+ +-+ +-+ +-+          
       Z   K           Z   K     K   Z       K     Z Z K     
   R       R   R   R   R   R     R   M   R   M         M  R  

   Gd      C   Gd      C   a   Gd        a       d E     a D G     
E---------------------0--------0-1-0--------0-1-0--------3---
H--3-----3-1--3---3------1--3------1--3---0-3--1-3-0--- 
G-----0--0---0--0--0-2------0-2---0-2--1--2-2--0- 
D---0---------------------------0--- 
A--2----3------3--0-------0--------0---- 
E---------3--3------3-------3---0-0----3-- 
   +-+ +-+     +-+ +-+ +-+     +-+ +-+      +-+         
   K     K Z   K   K       Z   K   Z     Z   K   Z   R   Z R K
   M       R   R   R   R   R   R         R   R   M   Z   R Z R

   C           G         G7  G6  Gd    a       Gd  C     Gd     C
E--0---0---1---3----3---1---0--------------------0---------------+ 
H------------------------3----1---1---3-------3-----1-1- 
G---0--0--0--0---0--0--0--0---2--2--0--0---0----0- 
D----------------------------------- 
A--3--3--3-------2----2---0--0--2--3---2-----3- 
E--------3---3----3----------------3-----+ 
   +-+ +-+ +-+ +-+   +-+ +-+ +-+ +-+   +-+ +-+ +-+ +-+   +-+ +-+
           Z   K     K   Z       K     Z   Z   K         K     Z Z
   R   R   R   R     R   M   R   M       R   R M   R     M   R   R

© Arrangement: E. Etzold.


[St.Jakobi] [Anfang] [Zurück] [Gitarrenkurs] [Weiter] [Ende] [Glaube]
Impressum, http://bs.cyty.com/visitabilis/gitarre/gitar35.htm, Stand: 20. Dezember 2000, ee