[ Gitarrenkurs Home ] [ Einführung ] [ Teil 1: Die Grundlagen ] [ Teil 2: Zupftechniken ] Teil 3: Das mehrstimmige Melodiespiel: Le Réve - Klassische Gitarre - Jesus bleibet... - Praeludium zu Te Deum - Götterfunken - Menuett - Bourée - Jesus meine Freude - Lied des Papageno - "himmlische Freiheit" - Ende und Verweise [ Anhang ] [ Visitabilis ]

[Gitarrenkurs]GITARRENKURS

Eines der bekanntesten klassischen Gitarrenstücke ist das Menuett, das im BWV Nr. 114 bei Johann Sebastian Bach zu finden ist. Sowohl Anfänger als auch Meister der Gitarre haben dieses immer wieder bearbeitet und eingespielt. Die für mich überzeugendste Einspielung stammt von Andrés Segovia. Er spielt das Stück, das sonst gewöhnlich in G-Dur notiert wird, in A-Dur, und diese Notierung liegt auch der hier vorliegenden Fassung zugrunde. Zur Spieltechnik: Man kann entweder direkt nach Tabulatur spielen oder ein Kapodaster auf dem 2. Bund verwenden, was bedeutet, dass man von den Bundangaben jeweils 2 abziehen muss, wenn man das Kapodaster auf dem 2. Bund als Basis nimmt.

Nachtrag: Dieses Bach zugeschriebene Menuett stammt ursprünglich von dem Dresdner Organisten und Komponisten Christian Petzold, 1677-1733, und es gehört zu mehreren Stücken, die von Bach überliefert wurden, aber sich anderen Ursprüngen verdanken.

MENUETT in G-Dur     Christian Petzold, BWV Nr. 114

Anhören: Anhören Midi-Wiedergabe - Anhören Ogg Vorbis: Streaming / Download - Notenansicht.

3/4-Takt (Kapodaster auf Bund 2)

A)

E----------------------------2-------2-4--5-----------+
H--5-------2-3--5---------------3-5---------------
G-----2-4-------2---2---------------2---2---
D-------------------------------------
A-------2---4----------5--------4---------
E--5-----------------------------------+
      +-+ +-+                 +-+ +-+         
   K     M   Z   K                 Z R   M   K
   R             M             R             M
  
E-----------------------------------------------------+
H--3---5-3-2----2---3-2--------------2----------------
G--------4-------4-2------2-4--2--4-----------
D------------------6--------2---2-------
A--2----------------7---4---------5-4-2-
E----------5-------------5----------+
      +-+ +-+      +-+ +-+      +-+ +-+      +-+ +-+
   Z   R Z   M       Z   M                   M
                 R             M   Z M R           R M
 
E----------------------------2-------2-4--5-----------+
H--5-------2-3--5---------------3-5---------------
G-----2-4-------2---2---------------2---2---
D-------------------------------------
A--4-----2------4-------5--------4---5-4-2---
E----------5------5------------------5-+
      +-+ +-+                 +-+ +-+      +-+ +-+
   K     M   Z   K                 Z R   M   K
   M             R   M   R     R             M   R M   R
 
E-----------------------------------------------------+
H--3---5-3-2----2---3-2----------2--------------------
G--------4-------4-2--4----4-2----2-----------
D---------------------2---6-------------
A--2-------------4---5-------------------
E-------4---5-------------5---5-------5---+
      +-+ +-+      +-+ +-+      +-+ +-+           
   Z   R Z   R       Z   M     M     M
           M     K       Z     R       R M   R       R 

B)

E--9-----7-9-----7-----2-4----5---2-4-5----------------+
H---10----10---------5--------5--4---2-4-----
G--2------------9--------2-----4-----4---
D-----------2--------4-----4-----------
A-----------------------------------
E-----------------------------------+
    +---+ +-+       +-+ +-+      +-+ +-+      +-+ 
   R K   Z R K    Z   R   M R   K     M K R   M     M
                                Z       Z     Z       Z

E----------2-4--5---4---2----4------------------------+
H----2-4-5---------------------4----5-----------
G--4--------------------4------------------
D------------2-------2----------2---2-------
A--2-------4------6----------2----------5---
E----------------------4----------------+
   +-+ +-+ +-+                               
   M   M R   M   K   M         R   M   R     R       M
                 Z       K         Z

E---------------2-------------------------------------+
H--5------------------------5---3---2----------------
G-----2---2-------2---2--------------4-2---2-4---
D------6---------6---------------2--6-----
A--4-----4----5-----5----4---2--------------
E--------------------------5-----------+
      +-+         +-+                 +-+ +-+ 
   R                           K   Z         M       M
   Z     K Z     M     K M     M       R         K

E------------------------------------------------------+
H------------2--3---2--------2-5----------------------
G--------2-4------2---4----2--2--------2-----------
D--2-4-6--6---4------6---------6-------2-------
A---------------------4---7--------------
E----------------------------5------5----+
   +-+ +-+ +-+              +-+               
           Z     Z       M       R
     M K   K     M       Z         Z   M     R       R

Erst Teil A üben. Wenn dieser sicher ohne große Stockungen durchgespielt werden kann, mit Teil B beginnen.

© Arrangement: E. Etzold.


[St.Jakobi] [Anfang] [Zurück] [Gitarrenkurs] [Weiter] [Ende] [Glaube]
Impressum, http://bs.cyty.com/visitabilis/gitarre/gitar36.htm, Stand: 20. Dezember 2000, ee