[ Gitarrenkurs Home ] [ Einführung ] [ Teil 1: Die Grundlagen ] [ Teil 2: Zupftechniken ] Teil 3: Das mehrstimmige Melodiespiel: Le Réve - Klassische Gitarre - Jesus bleibet... - Praeludium zu Te Deum - Götterfunken - Menuett - Bourée - Jesus meine Freude - Lied des Papageno - "himmlische Freiheit" - Ende und Verweise [ Anhang ] [ Visitabilis ]

[Gitarrenkurs]GITARRENKURS

BOURRÉE in e-Moll      Johann Sebastian Bach, BWV Nr. 996

Anhören: Anhören Midi-Wiedergabe - Anhören Ogg Vorbis: Streaming / Download - Notenansicht.

Die Zupfhand greift die Saiten mit Daumen und Mittelfinger (der Daumen immer die Bass-Saiten und der Mittelfinger die hohen Saiten). Unter den Tabulaturen sind die Finger der Greifhand notiert.

3/4-Takt

E--0-2--3---2-0------0-2-----------0------------------------+
H-----------4--------0---2-4----3-1---0--------------
G--------------------------------2-0-----0-2-
D----------------------------------4-----
A--------0---2---0-------2-----------0--2---0--
E--3-2--0-------------3-----0---2----3---------+
   +-+      +-+     +-+    -  +-+    +-+      +-+    +-+
     Z   M   Z    K     M        Z K     K Z       M   K     M
   R Z            Z          R   Z       M      R      Z

E--------------0-2---3---2-0-----0-2-----------0--------+
H--0--------------------4-------0---2-4----3-1--
G---2-0----------------------------------
D-----4-2------------------------------  
A----2------------0--2---0---------------
E--3----0-2-3-2---0------------3---2--0---2---+
   +-+ +-+ +-+ +-+       +-+    +-+       +-+    +-+
     M   K            M   Z   K     M        Z K     K Z
   R   Z   Z M R Z            Z          R   Z       M

E-----------------------------+
H--0-------------------------
G-----2-0-------0----0------
D-------4---------0------
A-----3--5---5-----2------
E--3-------------3-------+
      +-+    +-+
       M   M           M
   R   R   R           R


E--------------------3------0-----------------------------------+
H-0------3-----1-0----3---------3----0------------0-1--0-----
G---0-----2-------------4---5----2---1--2-------2--
D--------0------------------0-----2-----2------
A-------------2-----3------0---------0---------
E-3------2-----3----------4-----------------0----+
  +--+      +--+   +--+       +--+   +--+      +--+   +--+
          K  M Z     K  R        K  M K     R    Z  R    Z     R
  R       M       R  Z       M   R               M       M
                                                                              
E---------------------------3----0------------5--0-2-----0--+ 
H-----------------3------0----3------3-----------2---- 
G---2---------------2----------4-----5----------- 
D----------------0----------------------0------ 
A---0--2--0--------------2---3-------0--4-----1---- 
E---------3-2-------3-------4----------------+ 
    +--+  +--+   +--+      +--+   +--+      +--+   +--+
    R             K  M       K  R    K  M    R  K    R  K                                     
       M     R M          R  N    M  R          M       Z      
                           
E--3------------------------------7------4--2--0-5---0--3-+       
H----2--0------0---0---------------7--------------       
G-------3------------------------------------       
D----2---4-------------------------2--0---------       
A--2----------------------6------------4---0---        
E--------2-----7--6--7--9---7----------------+        
     +--+  +--+    +--+  +--+   +--+      +--+    +--+          
   K  M    M                       K  R    K  M    K      Z
   M  Z    R Z       M  Z  M  K Z  M       Z       R
 
E--2---0----3------1---0---5--0-2------0-------------------0----+
H-------3----3--------------2-----4---0-------------0-
G-----------------------------------------------
D--0---------------------------------------------
A-----3---2--------3---2---0--------2-----3--2--0-----
E-----------3--------------2----------------4---+
      +--+    +--+       +--+    +--+       +--+  +--+  +--+
          R K   R  Z        K    R   M       K
   Z   M    Z   M       R   Z        Z       Z      R  Z     K
 
E-----------------------------------------------------------------+
H-1-----3-----0-----1-----------0---------------------------------
G--------2---------0--2---------0----------------0-----------  
D---2--4------1--2-----------4---4--2--1--2--4---4--2---2-
A-0------------------4--6-----0----2--0---2--------
E---------3--------2-------0------------------0-+
  +--+  +--+  +--+  +--+   +--+  +--+   +--+     +--+   +--+
  Z     R  M     Z  M      M                    Z  R  K
     M  K     R     R      Z  R  K  Z    Z  R   M       Z  K  Z    Z


[St.Jakobi] [Anfang] [Zurück] [Gitarrenkurs] [Weiter] [Ende] [Glaube]
Impressum, http://bs.cyty.com/visitabilis/gitarre/gitar37.htm, Stand: 20. Dezember 2000, ee