[ Gitarrenkurs Home ] [ Einführung ] [ Teil 1: Die Grundlagen ] [ Teil 2: Zupftechniken ] Teil 3: Das mehrstimmige Melodiespiel: Le Réve - Klassische Gitarre - Jesus bleibet... - Praeludium zu Te Deum - Götterfunken - Menuett - Bourée - Jesus meine Freude - Lied des Papageno - "himmlische Freiheit" - Ende und Verweise [ Anhang ] [ Visitabilis ]

[Gitarrenkurs]GITARRENKURS

LIED DES PAPAGENO      Wolfgang Amadeus Mozart

Eines der bekanntesten Musikstücke von Mozart ist die Arie des Papageno aus der Oper "Die Zauberflöte" (Der Vogelfänger bin ich ja...). Für mich sind mit dieser Melodie frühe Kindheitserinnerungen verbunden. In den sechziger Jahren des 20. Jahrhunderts gab es im Norddeutschen Rundfunk vormittags den Schulfunk. Dessen Eröffnungsmelodie war das Lied des Papageno aus Mozarts Zauberflöte, und ich freute mich als Sechsjähriger damals auf jeden Tag, an dem es im Radio diese Melodie und den Schulfunk zu hören gab. Aber so eingängig die Melodie ist, es ist ausgesprochen schwierig, dieses Stück in eine Tabulatur für Gitarre umzusetzen. Anbei ein Versuch:

Anhören Anhören: Midi-Wiedergabe - Noten- und Druckansicht.

4/4-Takt
         2                                 3
E------------------------------------------------------------------------
H--0------------------------0---2---2------------3-----3-0-------------0-
G---2--0---0---2-0---0-2---0----0--4-----------------0---2---0---0--
D------0--0--0-4-0-0-0--0----0--0-0---0--0---0--0--0--0--0-
A-----2--2--2--2----2-------0--0--0--0--2--0--2--2--
E-----3------3--2----2--2-----2--2--2----2------ 
   +=+   +=+ +=+ +=+ +=+ +=+ +=+ +=+ +=+   +=+ +=+ +=+ +=+ +=+ +=+ +=+ +=+

  4                                 5
E----------------------------------------------------------------------
H----------------------0--------------3-----3--------------------------
G--2-0---0-2-0---0-2---0---2---2------------2---0-2-------------2----
D---2-0-2--2-0-2--0--0--0--0----0------0-----0---2---0-------
A----------0--2--0--0------0---0--0--0--0--0--0--0--
E--2--2--2--2--2----2--2-----2--2--0--0--2----2--2--- 
   +=+ +=+ +=+ +=+ +=+ +=+ +=+ +=+     +=+ +=+ +=+ +=+ +=+ +=+ +=+ +=+

  6                                    7
E----------------------------------------------------------------------
H--3-----3-------------2----------------------0-------0-----------3----
G--------2-----2-------------------2---2----2-0-2----2---0-------
D--0-----0-2-----2-0------0---0-------0--0--0--0--0--0--0--0--
A---0---0--0-----0-0-0--0--0----0--0--0--0-2-2--0--2--2---
E--2--2-2-3--3--2--0--2--2-2----2--2--2--2--3--2-------
   +=+ +=+ +=+ +=+ +=+ +=+ +=+ +=+     +=+ +=+ +=+ +=+ +=+ +=+ +=+ +=+

  8                              9
E--------------------------------------7-8-10---------7-8-10-----
H----------------------0-----1-----8-10---1--0-8-10--------
G--2-------2-0---0-2---0---2----0------2--0------0-2--
D---0---0--0---0--0--0--0---------0-----------
A--3--3--2--2--0--2--0-0---2-----------------
E--2---2-3--2--2----2-2--------------------
   +=+ +=+ +=+ +=+ +=+ +=+ +-+    +-+=+=+=+ +-+  +-+=+=+=+ +-+=+
                                    +-+-+-+        +-+-+-+  
 10                                 11
E--------------------------0--------------------------------------7-8-
H--0-----0-1-0---0-1---3------1----------------------0-------8-10--
G----------2---0--0--0--2----------0-------0--2---0-----
D---3-0-3-0-3--3-2----2--2---4-----4--4-2-4--0-0-4-------
A----------3--2--3---3--0-3-0-3-0-3-0-3-2--3-0-2-----
E--3------3----3-------------0--3----3-----
   +=+ +=+ +=+ +=+ +=+ +=+ +=+ +=+   +=+ +=+ +=+ +=+ +=+ +=+ +-+=+=+=+
                                                               +-+-+-+
  12                          13
E--10--------7-8-10---------------------------------------
H---1-0-8-10---1---------------------------0-----0----
G---2-0------2-0-0-----------------------0-0----2--
D---0-------0---0------0---0-0---------0-0----
A-----------2-2-----2--2-2-2-3-2-0---2-2----
E-----------------3--3----3-2----3----
   +-+ +-+=+=+=+ +-+ +-+=+     +=+ +=+ +=+ +=+  +-+ +-+=+
         +-+-+-+
  14                                 15
E-------------------------------------------------------------------
H----------------------0---2---2------------3-----3-0-------------0-
G--0---0---2-0---0-2---0----0--4-----------------0---2---0---0--
D---0--0--0-4-0-0-0--0----0--0-0---0--0---0--0--0--0--0-
A--2--2--2--2----2-------0--0--0--0--2--0--2--2--
E--3------3--2----2--2-----2--2--2----2------ 
   +=+ +=+ +=+ +=+ +=+ +=+ +=+ +=+   +=+ +=+ +=+ +=+ +=+ +=+ +=+ +=+

  16                                 17
E----------------------------------------------------------------------
H----------------------0--------------3-----3--------------------------
G--2-0---0-2-0---0-2---0---2---2------------2---0-2-------------2----
D---2-0-2--2-0-2--0--0--0--0----0------0-----0---2---0-------
A----------0--2--0--0------0---0--0--0--0--0--0--0--
E--2--2--2--2--2----2--2-----2--2--0--0--2----2--2--- 
   +=+ +=+ +=+ +=+ +=+ +=+ +=+ +=+   +=+ +=+ +=+ +=+ +=+ +=+ +=+ +=+

  18                                 19
E----------------------------------------------------------------------
H--3-----3-------------2----------------------0-------0-----------3----
G--------2-----2-------------------2---2----2-0-2----2---0-------
D--0-----0-2-----2-0------0---0-------0--0--0--0--0--0--0--0--
A---0---0--0-----0-0-0--0--0----0--0--0--0-2-2--0--2--2---
E--2--2-2-3--3--2--0--2--2-2----2--2--2--2--3--2-------
   +=+ +=+ +=+ +=+ +=+ +=+ +=+ +=+     +=+ +=+ +=+ +=+ +=+ +=+ +=+ +=+

  20                                 21
E--------------------------------------7-8-10---------7-8-10-----
H----------------------0-----1-----8-10---1--0-8-10--------
G--2-------2-0---0-2---0---2----0------2--0------0-2--
D---0---0--0---0--0--0--0---------0-----------
A--3--3--2--2--0--2--0-0---2-----------------
E--2---2-3--2--2----2-2--------------------
   +=+ +=+ +=+ +=+ +=+ +=+ +-+    +-+=+=+=+ +-+  +-+=+=+=+ +-+=+
                                    +-+-+-+        +-+-+-+  
  22                                 23
E--------------------------0--------------------------------------7-8-
H--0-----0-1-0---0-1---3------1----------------------0-------8-10--
G----------2---0--0--0--2----------0-------0--2---0-----
D---3-0-3-0-3--3-2----2--2---4-----4--4-2-4--0-0-4-------
A----------3--2--3---3--0-3-0-3-0-3-0-3-2--3-0-2-----
E--3------3----3-------------0--3----3-----
   +=+ +=+ +=+ +=+ +=+ +=+ +=+ +=+   +=+ +=+ +=+ +=+ +=+ +=+ +-+=+=+=+
                                                               +-+-+-+
  24                          25
E--10--------7-8-10-----------------------------------
H---1-0-8-10---1----------------0----------0------
G---2-0------2-0-0----------0----2-0----0-0----
D---0-------0---0------0--0-0--0-----0-0--
A-----------2-2-----2--2--2-3-2-0---2-2--
E-----------------3-------2----3--
   +-+ +-+=+=+=+ +-+ +-+=+     +=+ +=+ +=+ +=+  +-+ +
         +-+-+-+

© Arrangement: E. Etzold.


[St.Jakobi] [Anfang] [Zurück] [Gitarrenkurs] [Weiter] [Ende] [Glaube]
Impressum, http://bs.cyty.com/visitabilis/gitarre/gitar39.htm, Stand: 20. Dezember 2000, ee