[ Gitarrenkurs Home ] [ Einführung ] [ Teil 1: Die Grundlagen ] [ Teil 2: Zupftechniken ] Teil 3: Das mehrstimmige Melodiespiel: Le Réve - Klassische Gitarre - Jesus bleibet... - Praeludium zu Te Deum - Götterfunken - Menuett - Bourée - Jesus meine Freude - Lied des Papageno - "himmlische Freiheit" - Ende und Verweise [ Anhang ] [ Visitabilis ]

[Gitarrenkurs]GITARRENKURS

[Suche nach Freiheit. (c) Eckhard Etzold, Mai 1981]

"KOMM, HIMMLISCHE FREIHEIT, KOMM"      Georg Friedrich Händel,

Kaum bekannt ist die Melodie der folgenden Arie aus Händels Oratorium "Judas Makkabäus", "Komm, himmlische Freiheit, komm", ein Bittgesang um den Frieden und um Befreiung aus Unterdrückung und Gewalt. Ein schwungvolles Stück, das hier in einer Bearbeitung für Gitarre vorliegt.

Anhören Anhören: Midi-Wiedergabe - Notenansicht.


6/8 Takt

Teil A:
  1               2               3               4
E----------0------------0--------------0--------0-------------
H--------0----3--2-0--------3--2-0---0-----3--2-3-2-0-----0-
G--2-----------2--2-1---2-4--2--2-1--2--4---4-2-1--2--1-
D--2-----2------2---------2---2--------0---4---
A--4-2-0-------0---------0---------0--------
E------4-2-0---4-2-0-2--4---4-2-0---------0-----
   --= --   -- -=-   -- .-=-   -- .-=-     

  5             6             7             8            9
E------0----------0-2------------------0--2-0---------2-0--------
H--2-3----0-2--3---0---0------0-2-3-2--3-2-3-2-0---3-2-3-2-0--
G--2---2-------1-2-1--1-2-1-2-4-----4-2-1-----4-2-1--
D--2-------4-------2-4-0-----0-------0------
A--4-----0--5----------4-2-0---------------
E-----2-4------0----0--------------------
   -- --   -- --   -- --   =-- .   =-- . 

  10              11              12              13
E----------0------------0--------------0--------0-------------
H--------0----3--2-0--------3--2-0---0-----3--2-3-2-0-----0-
G--2-----------2--2-1---2-4--2--2-1--2--4---4-2-1--2--1-
D--2-----2------2---------2---2--------0---4---
A--4-2-0-------0---------0---------0--------
E------4-2-0---4-2-0-2--4---4-2-0---------0-----
   --= --   -- -=-   -- .-=-   -- .-=-     

  14            15            16            17           18
E------0----------0-2------------------0--2-0---------2-0--------
H--2-3----0-2--3---0---0------0-2-3-2--3-2-3-2-0---3-2-3-2-0--
G--2---2-------1-2-1--1-2-1-2-4-----4-2-1-----4-2-1--
D--2-------4-------2-4-0-----0-------0------
A--4-----0--5----------4-2-0---------------
E-----2-4------0----0--------------------
   -- --   -- --   -- --   =-- .   =-- . 

Teil B:
  19             20              21              22
E--2--0-------------------------------0----------------------
H--0--2-3-2-0----0-2-3-2-0-2-----------3---2--0-2-3-2-0-2---
G--1--2----2--2--1-2---0--4--1--2--1-2--2--1-2---2-
D--0--2------0--2-2-----0----2-4----0--2-2---2-
A----4---------0---------4--------0----
E----------2--------2---------2-------
   . -===   -- -=-     - -=-   -- -=-

  23            24            25           26
E------------------------------------------0-------0---0-
H----------0-1--------0-2-3--2---0----3--3-2-2-0-3-2-3-2-
G--2---0-2----4-1-2-1----1-3--3--4--4--3--4--4--
D--2-4--0----4------------4--4---0-----
A--4-------6------------2-----2-----
E-----2-----------1---2------2------
   -- --   -- --   --   -  -- -=== 

  27                        28           29             30
E----0---0---0---0---0---0------0-------2--0------------------------
H--3-2-3-2-3-2-3-2-3-2-3-2--2-3-2-3-0------3-2-0------2-3-2-0-2---
G--4--4--4--4--4--4---2-4-2-2-1---2------2--4--1-2---2-
D---------------2--2-2-2---0---------------
A--2----0---------0---0------4-0------2--0----
E--------4--0--4-------0-----------2--0-----
   ===========   =-- -   . -===   -- -=-

  31            32              33
E--------0-------------------------------------------
H--------0---3--2-0------------2-2-3-2-3-2-3-2-3-2-3-
G--2------2-1----2-1---1----2-2-4-2-4-2-4-2-4-2-4-
D--2-----2----2---2-4--2-------------
A--4-2-0-----0--------0-----0------
E-----4-2-0---4-2-0-2--4-------------
   -- --   -- -=-   -=== =====  

  34                        35                36         37
E--------------0------------0-2-0-4-0-5------------------5-----5-4-5-
H--2-3-2-3-2-3-2-3-2-3-2-3--2-3-2-3-2---3---2--0--------5---3----
G--2-4-2-4-2-4-2-4-2-4-2-4---4--4--6--2---2--1--2---2----2----
D----------------0----7------------2--------
A------0--4-------0-----------------4-4-4-2-2--2-
E--2----------------0----2---0--0------------
   ===== =====   -===   _   .   -   -- -=-

  38            39              40
E----5---0-0-------------------------------
H--2-----------3------------3-0-----2---
G--2---------2----1-----2--2-2-1-2-2---
D----------------4-2---0-2---2---
A--0-0-0------------5-4------0---
E-----4-4-4--2-2-2-0-----2-0-0-----
   -- --   -- =--   --= .

© Arrangement: E. Etzold.

Das Oratorium "Judas Makkabäus" handelt von der Unterdrückung des Volkes Israel unter Antiochus IV. Judas Makkabäus war der Anführer, der das Volk Israel von den Syrern durch Kampf und Streit in die Freiheit führte und ihm den ersehnten Frieden brachte. Die fließend-schwingende Melodieführung geben dem Duett eine vorwärts drängende Richtung, in der die anfangs polyphon nebeneinander stehenden Stimmen zusammenfließen und sich dann im Schlussteil vereinigen.


[St.Jakobi] [Anfang] [Zurück] [Gitarrenkurs] [Weiter] [Glaube]
Impressum, http://bs.cyty.com/visitabilis/gitarre/gitar40.htm, Stand: 20. Dezember 2000, ee